  0
SECTION
  2
HEADER
  9
$ACADVER
  1
AC1015
  9
$ACADMAINTVER
 70
     6
  9
$DWGCODEPAGE
  3
ANSI_1254
  9
$INSBASE
 10
0.0
 20
0.0
 30
0.0
  9
$EXTMIN
 10
0.0
 20
0.0
 30
0.0
  9
$EXTMAX
 10
279.4
 20
215.9
 30
0.0
  9
$LIMMIN
 10
0.0
 20
0.0
  9
$LIMMAX
 10
279.4
 20
215.9
  9
$ORTHOMODE
 70
     0
  9
$REGENMODE
 70
     1
  9
$FILLMODE
 70
     1
  9
$QTEXTMODE
 70
     0
  9
$MIRRTEXT
 70
     1
  9
$LTSCALE
 40
1.0
  9
$ATTMODE
 70
     1
  9
$TEXTSIZE
 40
3.5
  9
$TRACEWID
 40
1.0
  9
$TEXTSTYLE
  7
Standard
  9
$CLAYER
  8
0
  9
$CELTYPE
  6
ByLayer
  9
$CECOLOR
 62
   256
  9
$CELTSCALE
 40
1.0
  9
$DISPSILH
 70
     0
  9
$DIMSCALE
 40
1.0
  9
$DIMASZ
 40
3.5
  9
$DIMEXO
 40
1.0
  9
$DIMDLI
 40
3.75
  9
$DIMRND
 40
0.0
  9
$DIMDLE
 40
0.0
  9
$DIMEXE
 40
1.0
  9
$DIMTP
 40
0.0
  9
$DIMTM
 40
0.0
  9
$DIMTXT
 40
3.5
  9
$DIMCEN
 40
2.5
  9
$DIMTSZ
 40
0.0
  9
$DIMTOL
 70
     0
  9
$DIMLIM
 70
     0
  9
$DIMTIH
 70
     1
  9
$DIMTOH
 70
     1
  9
$DIMSE1
 70
     0
  9
$DIMSE2
 70
     0
  9
$DIMTAD
 70
     1
  9
$DIMZIN
 70
     0
  9
$DIMBLK
  1

  9
$DIMASO
 70
     1
  9
$DIMSHO
 70
     1
  9
$DIMPOST
  1

  9
$DIMAPOST
  1

  9
$DIMALT
 70
     0
  9
$DIMALTD
 70
     3
  9
$DIMALTF
 40
0.0393700787
  9
$DIMLFAC
 40
1.0
  9
$DIMTOFL
 70
     1
  9
$DIMTVP
 40
0.0
  9
$DIMTIX
 70
     0
  9
$DIMSOXD
 70
     0
  9
$DIMSAH
 70
     0
  9
$DIMBLK1
  1

  9
$DIMBLK2
  1

  9
$DIMSTYLE
  2
ISO-25
  9
$DIMCLRD
 70
     0
  9
$DIMCLRE
 70
     0
  9
$DIMCLRT
 70
     0
  9
$DIMTFAC
 40
1.0
  9
$DIMGAP
 40
1.524
  9
$DIMJUST
 70
     0
  9
$DIMSD1
 70
     0
  9
$DIMSD2
 70
     0
  9
$DIMTOLJ
 70
     0
  9
$DIMTZIN
 70
     0
  9
$DIMALTZ
 70
     0
  9
$DIMALTTZ
 70
     0
  9
$DIMUPT
 70
     0
  9
$DIMDEC
 70
     2
  9
$DIMTDEC
 70
     2
  9
$DIMALTU
 70
     2
  9
$DIMALTTD
 70
     3
  9
$DIMTXSTY
  7
Standard
  9
$DIMAUNIT
 70
     0
  9
$DIMADEC
 70
     2
  9
$DIMALTRND
 40
0.0
  9
$DIMAZIN
 70
     0
  9
$DIMDSEP
 70
    44
  9
$DIMATFIT
 70
     3
  9
$DIMFRAC
 70
     0
  9
$DIMLDRBLK
  1

  9
$DIMLUNIT
 70
     2
  9
$DIMLWD
 70
    -2
  9
$DIMLWE
 70
    -2
  9
$DIMTMOVE
 70
     0
  9
$LUNITS
 70
     2
  9
$LUPREC
 70
     2
  9
$SKETCHINC
 40
1.0
  9
$FILLETRAD
 40
10.0
  9
$AUNITS
 70
     0
  9
$AUPREC
 70
     2
  9
$MENU
  1
.
  9
$ELEVATION
 40
0.0
  9
$PELEVATION
 40
0.0
  9
$THICKNESS
 40
0.0
  9
$LIMCHECK
 70
     0
  9
$CHAMFERA
 40
0.0
  9
$CHAMFERB
 40
0.0
  9
$CHAMFERC
 40
0.0
  9
$CHAMFERD
 40
0.0
  9
$SKPOLY
 70
     0
  9
$TDCREATE
 40
2459935.700593021
  9
$TDUCREATE
 40
2459935.575593021
  9
$TDUPDATE
 40
2459935.700593206
  9
$TDUUPDATE
 40
2459935.575593206
  9
$TDINDWG
 40
0.0000000116
  9
$TDUSRTIMER
 40
0.0000000116
  9
$USRTIMER
 70
     1
  9
$ANGBASE
 50
0.0
  9
$ANGDIR
 70
     0
  9
$PDMODE
 70
     0
  9
$PDSIZE
 40
-1.0
  9
$PLINEWID
 40
0.0
  9
$SPLFRAME
 70
     0
  9
$SPLINETYPE
 70
     6
  9
$SPLINESEGS
 70
     8
  9
$HANDSEED
  5
D2
  9
$SURFTAB1
 70
     6
  9
$SURFTAB2
 70
     6
  9
$SURFTYPE
 70
     6
  9
$SURFU
 70
     6
  9
$SURFV
 70
     6
  9
$UCSBASE
  2

  9
$UCSNAME
  2

  9
$UCSORG
 10
0.0
 20
0.0
 30
0.0
  9
$UCSXDIR
 10
1.0
 20
0.0
 30
0.0
  9
$UCSYDIR
 10
0.0
 20
1.0
 30
0.0
  9
$UCSORTHOREF
  2

  9
$UCSORTHOVIEW
 70
     0
  9
$UCSORGTOP
 10
0.0
 20
0.0
 30
0.0
  9
$UCSORGBOTTOM
 10
0.0
 20
0.0
 30
0.0
  9
$UCSORGLEFT
 10
0.0
 20
0.0
 30
0.0
  9
$UCSORGRIGHT
 10
0.0
 20
0.0
 30
0.0
  9
$UCSORGFRONT
 10
0.0
 20
0.0
 30
0.0
  9
$UCSORGBACK
 10
0.0
 20
0.0
 30
0.0
  9
$PUCSBASE
  2

  9
$PUCSNAME
  2

  9
$PUCSORG
 10
0.0
 20
0.0
 30
0.0
  9
$PUCSXDIR
 10
1.0
 20
0.0
 30
0.0
  9
$PUCSYDIR
 10
0.0
 20
1.0
 30
0.0
  9
$PUCSORTHOREF
  2

  9
$PUCSORTHOVIEW
 70
     0
  9
$PUCSORGTOP
 10
0.0
 20
0.0
 30
0.0
  9
$PUCSORGBOTTOM
 10
0.0
 20
0.0
 30
0.0
  9
$PUCSORGLEFT
 10
0.0
 20
0.0
 30
0.0
  9
$PUCSORGRIGHT
 10
0.0
 20
0.0
 30
0.0
  9
$PUCSORGFRONT
 10
0.0
 20
0.0
 30
0.0
  9
$PUCSORGBACK
 10
0.0
 20
0.0
 30
0.0
  9
$USERI1
 70
     0
  9
$USERI2
 70
     0
  9
$USERI3
 70
     0
  9
$USERI4
 70
     0
  9
$USERI5
 70
     0
  9
$USERR1
 40
0.0
  9
$USERR2
 40
0.0
  9
$USERR3
 40
0.0
  9
$USERR4
 40
0.0
  9
$USERR5
 40
0.0
  9
$WORLDVIEW
 70
     1
  9
$SHADEDGE
 70
     3
  9
$SHADEDIF
 70
    70
  9
$TILEMODE
 70
     1
  9
$MAXACTVP
 70
    64
  9
$PINSBASE
 10
0.0
 20
0.0
 30
0.0
  9
$PLIMCHECK
 70
     0
  9
$PEXTMIN
 10
1.0000000000E+20
 20
1.0000000000E+20
 30
1.0000000000E+20
  9
$PEXTMAX
 10
-1.0000000000E+20
 20
-1.0000000000E+20
 30
-1.0000000000E+20
  9
$PLIMMIN
 10
0.0
 20
0.0
  9
$PLIMMAX
 10
420.0
 20
297.0
  9
$UNITMODE
 70
     0
  9
$VISRETAIN
 70
     1
  9
$PLINEGEN
 70
     0
  9
$PSLTSCALE
 70
     1
  9
$TREEDEPTH
 70
  3020
  9
$CMLSTYLE
  2
Standard
  9
$CMLJUST
 70
     0
  9
$CMLSCALE
 40
20.0
  9
$PROXYGRAPHICS
 70
     1
  9
$MEASUREMENT
 70
     1
  9
$CELWEIGHT
370
    -1
  9
$ENDCAPS
280
     0
  9
$JOINSTYLE
280
     0
  9
$LWDISPLAY
290
     1
  9
$INSUNITS
 70
     4
  9
$HYPERLINKBASE
  1

  9
$STYLESHEET
  1

  9
$XEDIT
290
     1
  9
$CEPSNTYPE
380
     0
  9
$PSTYLEMODE
290
     1
  9
$FINGERPRINTGUID
  2
{5148f0bd-3bfa-428e-b254-40cf3d52d85e}
  9
$VERSIONGUID
  2
{FAEB1C32-E019-11D5-929B-00C0DF256EC4}
  9
$EXTNAMES
290
     1
  9
$PSVPSCALE
 40
0.0
  9
$OLESTARTUP
290
     0
  0
ENDSEC
  0
SECTION
  2
CLASSES
  0
CLASS
  1
ACDBDICTIONARYWDFLT
  2
AcDbDictionaryWithDefault
  3
ObjectDBX Classes
 90
        0
280
     0
281
     0
  0
CLASS
  1
VISUALSTYLE
  2
AcDbVisualStyle
  3
ObjectDBX Classes
 90
     4095
280
     0
281
     0
  0
CLASS
  1
MATERIAL
  2
AcDbMaterial
  3
ObjectDBX Classes
 90
     1153
280
     0
281
     0
  0
CLASS
  1
SCALE
  2
AcDbScale
  3
ObjectDBX Classes
 90
     1153
280
     0
281
     0
  0
CLASS
  1
TABLESTYLE
  2
AcDbTableStyle
  3
ObjectDBX Classes
 90
     4095
280
     0
281
     0
  0
CLASS
  1
MLEADERSTYLE
  2
AcDbMLeaderStyle
  3
ACDB_MLEADERSTYLE_CLASS
 90
     4095
280
     0
281
     0
  0
CLASS
  1
SUN
  2
AcDbSun
  3
SCENEOE
 90
     1153
280
     0
281
     0
  0
CLASS
  1
ACDBPLACEHOLDER
  2
AcDbPlaceHolder
  3
ObjectDBX Classes
 90
        0
280
     0
281
     0
  0
CLASS
  1
LAYOUT
  2
AcDbLayout
  3
ObjectDBX Classes
 90
        0
280
     0
281
     0
  0
ENDSEC
  0
SECTION
  2
TABLES
  0
TABLE
  2
VPORT
  5
8
330
0
100
AcDbSymbolTable
 70
     1
  0
VPORT
  5
29
330
8
100
AcDbSymbolTableRecord
100
AcDbViewportTableRecord
  2
*Active
 70
     0
 10
0.0
 20
0.0
 11
1.0
 21
1.0
 12
139.7
 22
107.95
 13
0.0
 23
0.0
 14
10.0
 24
10.0
 15
10.0
 25
10.0
 16
0.0
 26
0.0
 36
1.0
 17
0.0
 27
0.0
 37
0.0
 40
215.9
 41
1.2941176471
 42
50.0
 43
0.0
 44
0.0
 50
0.0
 51
0.0
 71
     0
 72
  2000
 73
     1
 74
     3
 75
     0
 76
     0
 77
     0
 78
     0
281
     0
 65
     1
110
0.0
120
0.0
130
0.0
111
1.0
121
0.0
131
0.0
112
0.0
122
1.0
132
0.0
 79
     0
146
0.0
  0
ENDTAB
  0
TABLE
  2
LTYPE
  5
5
330
0
100
AcDbSymbolTable
 70
     6
  0
LTYPE
  5
14
330
5
100
AcDbSymbolTableRecord
100
AcDbLinetypeTableRecord
  2
ByBlock
 70
     0
  3

 72
    65
 73
     0
 40
0.0
  0
LTYPE
  5
15
330
5
100
AcDbSymbolTableRecord
100
AcDbLinetypeTableRecord
  2
ByLayer
 70
     0
  3

 72
    65
 73
     0
 40
0.0
  0
LTYPE
  5
16
330
5
100
AcDbSymbolTableRecord
100
AcDbLinetypeTableRecord
  2
Continuous
 70
     0
  3
Solid line
 72
    65
 73
     0
 40
0.0
  0
LTYPE
  5
6E
330
5
100
AcDbSymbolTableRecord
100
AcDbLinetypeTableRecord
  2
HIDDEN
 70
     0
  3
Hidden __ __ __ __ __ __ __ __ __ __ __ __ __ __
 72
    65
 73
     2
 40
1.905
 49
1.27
 74
     0
 49
-0.635
 74
     0
  0
LTYPE
  5
6F
330
5
100
AcDbSymbolTableRecord
100
AcDbLinetypeTableRecord
  2
PHANTOM
 70
     0
  3
Phantom ______  __  __  ______  __  __  ______
 72
    65
 73
     6
 40
12.7
 49
6.35
 74
     0
 49
-1.27
 74
     0
 49
1.27
 74
     0
 49
-1.27
 74
     0
 49
1.27
 74
     0
 49
-1.27
 74
     0
  0
LTYPE
  5
70
330
5
100
AcDbSymbolTableRecord
100
AcDbLinetypeTableRecord
  2
CENTER
 70
     0
  3
Center ____ _ ____ _ ____ _ ____ _ ____ _ ____
 72
    65
 73
     4
 40
10.16
 49
6.35
 74
     0
 49
-1.27
 74
     0
 49
1.27
 74
     0
 49
-1.27
 74
     0
  0
LTYPE
  5
71
330
5
100
AcDbSymbolTableRecord
100
AcDbLinetypeTableRecord
  2
CENTERX2
 70
     0
  3
Center (2x) ________  __  ________  __  _____
 72
    65
 73
     4
 40
20.32
 49
12.7
 74
     0
 49
-2.54
 74
     0
 49
2.54
 74
     0
 49
-2.54
 74
     0
  0
LTYPE
  5
72
330
5
100
AcDbSymbolTableRecord
100
AcDbLinetypeTableRecord
  2
DOT2
 70
     0
  3
Dot (.5x) ........................................
 72
    65
 73
     2
 40
0.635
 49
0.0
 74
     0
 49
-0.635
 74
     0
  0
ENDTAB
  0
TABLE
  2
LAYER
  5
2
330
0
100
AcDbSymbolTable
 70
    17
  0
LAYER
  5
10
330
2
100
AcDbSymbolTableRecord
100
AcDbLayerTableRecord
  2
0
 70
     0
 62
     7
  6
Continuous
370
    -3
390
F
  0
LAYER
  5
73
330
2
100
AcDbSymbolTableRecord
100
AcDbLayerTableRecord
  2
FORMAT
 70
     0
 62
     7
  6
Continuous
370
    -3
390
F
  0
LAYER
  5
74
330
2
100
AcDbSymbolTableRecord
100
AcDbLayerTableRecord
  2
YARDIMCI_GEOMETRI
 70
     0
 62
    -6
  6
Continuous
290
     0
370
    -3
390
F
  0
LAYER
  5
75
330
2
100
AcDbSymbolTableRecord
100
AcDbLayerTableRecord
  2
SAYFA_CERCEVESI
 70
     0
 62
     7
  6
Continuous
370
    25
390
F
  0
LAYER
  5
76
330
2
100
AcDbSymbolTableRecord
100
AcDbLayerTableRecord
  2
ANTET
 70
     0
 62
     7
  6
Continuous
370
    -3
390
F
  0
LAYER
  5
77
330
2
100
AcDbSymbolTableRecord
100
AcDbLayerTableRecord
  2
OLCU
 70
     0
 62
   150
  6
Continuous
370
    -3
390
F
  0
LAYER
  5
78
330
2
100
AcDbSymbolTableRecord
100
AcDbLayerTableRecord
  2
METIN
 70
     0
 62
    96
  6
Continuous
370
    -3
390
F
  0
LAYER
  5
79
330
2
100
AcDbSymbolTableRecord
100
AcDbLayerTableRecord
  2
BALON
 70
     0
 62
     5
  6
Continuous
370
    -3
390
F
  0
LAYER
  5
7A
330
2
100
AcDbSymbolTableRecord
100
AcDbLayerTableRecord
  2
VURGU
 70
     0
 62
     7
  6
Continuous
370
    -3
390
F
  0
LAYER
  5
7B
330
2
100
AcDbSymbolTableRecord
100
AcDbLayerTableRecord
  2
SILIK
 70
     0
 62
     7
  6
Continuous
370
    -3
390
F
  0
LAYER
  5
7C
330
2
100
AcDbSymbolTableRecord
100
AcDbLayerTableRecord
  2
MODEL
 70
     0
 62
     7
  6
Continuous
370
    -3
390
F
  0
LAYER
  5
7D
330
2
100
AcDbSymbolTableRecord
100
AcDbLayerTableRecord
  2
DETAYLANDıRMA
 70
     0
 62
   190
  6
Continuous
370
    -3
390
F
  0
LAYER
  5
7E
330
2
100
AcDbSymbolTableRecord
100
AcDbLayerTableRecord
  2
TOLERANS
 70
     0
 62
   230
  6
Continuous
370
    -3
390
F
  0
LAYER
  5
7F
330
2
100
AcDbSymbolTableRecord
100
AcDbLayerTableRecord
  2
MERKEZ_CIZGILERI
 70
     0
 62
    30
  6
Continuous
370
    -3
390
F
  0
LAYER
  5
80
330
2
100
AcDbSymbolTableRecord
100
AcDbLayerTableRecord
  2
KESIT-DETAY_CIZGILERI
 70
     0
 62
     7
  6
Continuous
370
    -3
390
F
  0
LAYER
  5
81
330
2
100
AcDbSymbolTableRecord
100
AcDbLayerTableRecord
  2
\U+041E\U+0421\U+0415\U+0412\U+042B\U+0415
 70
     0
 62
     7
  6
Continuous
370
    -3
390
F
  0
LAYER
  5
82
330
2
100
AcDbSymbolTableRecord
100
AcDbLayerTableRecord
  2
\U+0412\U+041E\U+0414\U+042F\U+041D\U+042B\U+0415_\U+0417\U+041D\U+0410\U+041A\U+0418
 70
     0
 62
    11
  6
Continuous
370
    -3
390
F
  0
ENDTAB
  0
TABLE
  2
STYLE
  5
3
330
0
100
AcDbSymbolTable
 70
     1
  0
STYLE
  5
11
330
3
100
AcDbSymbolTableRecord
100
AcDbTextStyleTableRecord
  2
Standard
 70
     0
 40
0.0
 41
1.0
 50
0.0
 71
     0
 42
3.5
  3
txt
  4

  0
ENDTAB
  0
TABLE
  2
VIEW
  5
6
330
0
100
AcDbSymbolTable
 70
     0
  0
ENDTAB
  0
TABLE
  2
UCS
  5
7
330
0
100
AcDbSymbolTable
 70
     0
  0
ENDTAB
  0
TABLE
  2
APPID
  5
9
330
0
100
AcDbSymbolTable
 70
     1
  0
APPID
  5
12
330
9
100
AcDbSymbolTableRecord
100
AcDbRegAppTableRecord
  2
ACAD
 70
     0
  0
ENDTAB
  0
TABLE
  2
DIMSTYLE
  5
A
330
0
100
AcDbSymbolTable
 70
     1
100
AcDbDimStyleTable
  0
DIMSTYLE
105
27
330
A
100
AcDbSymbolTableRecord
100
AcDbDimStyleTableRecord
  2
ISO-25
 70
     0
 41
2.5
 42
0.625
 43
3.75
 44
1.25
 73
     0
 74
     0
 77
     1
 78
     8
140
2.5
141
2.5
143
0.0393700787
147
0.625
171
     3
172
     1
178
     0
271
     2
272
     2
274
     3
278
    44
283
     0
284
     8
340
11
  0
ENDTAB
  0
TABLE
  2
BLOCK_RECORD
  5
1
330
0
100
AcDbSymbolTable
 70
     3
  0
BLOCK_RECORD
  5
1F
330
1
100
AcDbSymbolTableRecord
100
AcDbBlockTableRecord
  2
*Model_Space
340
22
  0
BLOCK_RECORD
  5
1B
330
1
100
AcDbSymbolTableRecord
100
AcDbBlockTableRecord
  2
*Paper_Space
340
1E
  0
BLOCK_RECORD
  5
23
330
1
100
AcDbSymbolTableRecord
100
AcDbBlockTableRecord
  2
*Paper_Space0
340
26
  0
BLOCK_RECORD
  5
88
330
1
100
AcDbSymbolTableRecord
100
AcDbBlockTableRecord
  2
SW_CENTERMARKSYMBOL_0
340
0
102
{BLKREFS
331
93
102
}
  0
BLOCK_RECORD
  5
BB
330
1
100
AcDbSymbolTableRecord
100
AcDbBlockTableRecord
  2
SW_CENTERMARKSYMBOL_1
340
0
102
{BLKREFS
331
C6
102
}
  0
ENDTAB
  0
ENDSEC
  0
SECTION
  2
BLOCKS
  0
BLOCK
  5
20
330
1F
100
AcDbEntity
  8
0
100
AcDbBlockBegin
  2
*Model_Space
 70
     0
 10
0.0
 20
0.0
 30
0.0
  3
*Model_Space
  1

  0
ENDBLK
  5
21
330
1F
100
AcDbEntity
  8
0
100
AcDbBlockEnd
  0
BLOCK
  5
1C
330
1B
100
AcDbEntity
 67
     1
  8
0
100
AcDbBlockBegin
  2
*Paper_Space
 70
     0
 10
0.0
 20
0.0
 30
0.0
  3
*Paper_Space
  1

  0
ENDBLK
  5
1D
330
1B
100
AcDbEntity
 67
     1
  8
0
100
AcDbBlockEnd
  0
BLOCK
  5
24
330
23
100
AcDbEntity
  8
0
100
AcDbBlockBegin
  2
*Paper_Space0
 70
     0
 10
0.0
 20
0.0
 30
0.0
  3
*Paper_Space0
  1

  0
ENDBLK
  5
25
330
23
100
AcDbEntity
  8
0
100
AcDbBlockEnd
  0
BLOCK
  5
89
330
88
100
AcDbEntity
  8
0
100
AcDbBlockBegin
  2
SW_CENTERMARKSYMBOL_0
 70
     0
 10
0.0
 20
0.0
 30
0.0
  3
SW_CENTERMARKSYMBOL_0
  1

  0
LINE
  5
8B
330
88
100
AcDbEntity
  8
FORMAT
 62
     0
100
AcDbLine
 10
0.0
 20
0.0
 30
0.0
 11
0.0
 21
2.5
 31
0.0
  0
LINE
  5
8C
330
88
100
AcDbEntity
  8
FORMAT
 62
     0
100
AcDbLine
 10
0.0
 20
0.0
 30
0.0
 11
-2.5
 21
0.0
 31
0.0
  0
LINE
  5
8D
330
88
100
AcDbEntity
  8
FORMAT
 62
     0
100
AcDbLine
 10
0.0
 20
0.0
 30
0.0
 11
0.0
 21
-2.5
 31
0.0
  0
LINE
  5
8E
330
88
100
AcDbEntity
  8
FORMAT
 62
     0
100
AcDbLine
 10
0.0
 20
0.0
 30
0.0
 11
2.5
 21
0.0
 31
0.0
  0
LINE
  5
8F
330
88
100
AcDbEntity
  8
FORMAT
 62
     0
100
AcDbLine
 10
0.0
 20
5.0
 30
0.0
 11
0.0
 21
160.0
 31
0.0
  0
LINE
  5
90
330
88
100
AcDbEntity
  8
FORMAT
 62
     0
100
AcDbLine
 10
-5.0
 20
0.0
 30
0.0
 11
-160.0
 21
0.0
 31
0.0
  0
LINE
  5
91
330
88
100
AcDbEntity
  8
FORMAT
 62
     0
100
AcDbLine
 10
0.0
 20
-5.0
 30
0.0
 11
0.0
 21
-160.0
 31
0.0
  0
LINE
  5
92
330
88
100
AcDbEntity
  8
FORMAT
 62
     0
100
AcDbLine
 10
5.0
 20
0.0
 30
0.0
 11
160.0
 21
0.0
 31
0.0
  0
ENDBLK
  5
8A
330
88
100
AcDbEntity
  8
0
100
AcDbBlockEnd
  0
BLOCK
  5
BC
330
BB
100
AcDbEntity
  8
0
100
AcDbBlockBegin
  2
SW_CENTERMARKSYMBOL_1
 70
     0
 10
0.0
 20
0.0
 30
0.0
  3
SW_CENTERMARKSYMBOL_1
  1

  0
LINE
  5
BE
330
BB
100
AcDbEntity
  8
FORMAT
 62
     0
100
AcDbLine
 10
0.0
 20
0.0
 30
0.0
 11
0.0
 21
2.5
 31
0.0
  0
LINE
  5
BF
330
BB
100
AcDbEntity
  8
FORMAT
 62
     0
100
AcDbLine
 10
0.0
 20
0.0
 30
0.0
 11
-2.5
 21
0.0
 31
0.0
  0
LINE
  5
C0
330
BB
100
AcDbEntity
  8
FORMAT
 62
     0
100
AcDbLine
 10
0.0
 20
0.0
 30
0.0
 11
0.0
 21
-2.5
 31
0.0
  0
LINE
  5
C1
330
BB
100
AcDbEntity
  8
FORMAT
 62
     0
100
AcDbLine
 10
0.0
 20
0.0
 30
0.0
 11
2.5
 21
0.0
 31
0.0
  0
LINE
  5
C2
330
BB
100
AcDbEntity
  8
FORMAT
 62
     0
100
AcDbLine
 10
0.0
 20
5.0
 30
0.0
 11
0.0
 21
160.0
 31
0.0
  0
LINE
  5
C3
330
BB
100
AcDbEntity
  8
FORMAT
 62
     0
100
AcDbLine
 10
-5.0
 20
0.0
 30
0.0
 11
-160.0
 21
0.0
 31
0.0
  0
LINE
  5
C4
330
BB
100
AcDbEntity
  8
FORMAT
 62
     0
100
AcDbLine
 10
0.0
 20
-5.0
 30
0.0
 11
0.0
 21
-160.0
 31
0.0
  0
LINE
  5
C5
330
BB
100
AcDbEntity
  8
FORMAT
 62
     0
100
AcDbLine
 10
5.0
 20
0.0
 30
0.0
 11
160.0
 21
0.0
 31
0.0
  0
ENDBLK
  5
BD
330
BB
100
AcDbEntity
  8
0
100
AcDbBlockEnd
  0
ENDSEC
  0
SECTION
  2
ENTITIES
  0
LINE
  5
83
330
1F
100
AcDbEntity
  8
0
  6
Continuous
 62
     7
370
    25
100
AcDbLine
 10
21.8224705251
 20
-55.0310765569
 30
0.0
 11
373.8224705251
 21
-55.0310765569
 31
0.0
  0
LINE
  5
84
330
1F
100
AcDbEntity
  8
0
  6
Continuous
 62
     7
370
    25
100
AcDbLine
 10
373.8224705251
 20
259.9689234431
 30
0.0
 11
21.8224705251
 21
259.9689234431
 31
0.0
  0
CIRCLE
  5
85
330
1F
100
AcDbEntity
  8
0
  6
Continuous
 62
     7
370
    25
100
AcDbCircle
 10
21.8224705251
 20
102.4689234431
 30
0.0
 40
138.8
  0
CIRCLE
  5
86
330
1F
100
AcDbEntity
  8
0
  6
Continuous
 62
     7
370
    25
100
AcDbCircle
 10
21.8224705251
 20
102.4689234431
 30
0.0
 40
157.5
  0
LINE
  5
87
330
1F
100
AcDbEntity
  8
0
  6
Continuous
 62
     7
370
    25
100
AcDbLine
 10
373.8224705251
 20
259.9689234431
 30
0.0
 11
373.8224705251
 21
-55.0310765569
 31
0.0
  0
INSERT
  5
93
330
1F
100
AcDbEntity
  8
FORMAT
100
AcDbBlockReference
  2
SW_CENTERMARKSYMBOL_0
 10
21.8224705251
 20
102.4689234431
 30
0.0
  0
LINE
  5
94
330
1F
100
AcDbEntity
  8
0
  6
Continuous
 62
     7
370
    25
100
AcDbLine
 10
179.3224705251
 20
856.4182098643
 30
0.0
 11
179.3224705251
 21
1054.9182098643
 31
0.0
  0
LINE
  5
95
330
1F
100
AcDbEntity
  8
0
  6
Continuous
 62
     7
370
    25
100
AcDbLine
 10
179.3224705251
 20
342.9182098643
 30
0.0
 11
179.3224705251
 21
541.4182098643
 31
0.0
  0
LINE
  5
96
330
1F
100
AcDbEntity
  8
0
  6
Continuous
 62
     7
370
    25
100
AcDbLine
 10
-135.6775294749
 20
1054.9182098643
 30
0.0
 11
-135.6775294749
 21
342.9182098643
 31
0.0
  0
LINE
  5
97
330
1F
100
AcDbEntity
  8
0
  6
Continuous
 62
     7
370
    25
100
AcDbLine
 10
179.3224705251
 20
541.4182098643
 30
0.0
 11
373.8224705251
 21
541.4182098643
 31
0.0
  0
LINE
  5
98
330
1F
100
AcDbEntity
  8
0
  6
Continuous
 62
     7
370
    25
100
AcDbLine
 10
373.8224705251
 20
856.4182098643
 30
0.0
 11
179.3224705251
 21
856.4182098643
 31
0.0
  0
LINE
  5
99
330
1F
100
AcDbEntity
  8
0
  6
Continuous
 62
     7
370
    25
100
AcDbLine
 10
179.3224705251
 20
856.4182098643
 30
0.0
 11
21.8224705251
 21
698.9182098643
 31
0.0
  0
LINE
  5
9A
330
1F
100
AcDbEntity
  8
0
  6
Continuous
 62
     7
370
    25
100
AcDbLine
 10
21.8224705251
 20
698.9182098643
 30
0.0
 11
179.3224705251
 21
541.4182098643
 31
0.0
  0
LINE
  5
9B
330
1F
100
AcDbEntity
  8
0
  6
Continuous
 62
     7
370
    25
100
AcDbLine
 10
-135.6775294749
 20
1054.9182098643
 30
0.0
 11
179.3224705251
 21
1054.9182098643
 31
0.0
  0
LINE
  5
9C
330
1F
100
AcDbEntity
  8
0
  6
Continuous
 62
     7
370
    25
100
AcDbLine
 10
-135.6775294749
 20
342.9182098643
 30
0.0
 11
179.3224705251
 21
342.9182098643
 31
0.0
  0
LINE
  5
9D
330
1F
100
AcDbEntity
  8
0
  6
Continuous
 62
     7
370
    25
100
AcDbLine
 10
373.8224705251
 20
856.4182098643
 30
0.0
 11
373.8224705251
 21
541.4182098643
 31
0.0
  0
LINE
  5
9E
330
1F
100
AcDbEntity
  8
0
  6
Continuous
 62
     7
370
    25
100
AcDbLine
 10
856.5165273607
 20
-55.0310765569
 30
0.0
 11
1212.5165273607
 21
-55.0310765569
 31
0.0
  0
LINE
  5
9F
330
1F
100
AcDbEntity
  8
0
  6
Continuous
 62
     7
370
    25
100
AcDbLine
 10
500.5165273607
 20
-55.0310765569
 30
0.0
 11
856.5165273607
 21
-55.0310765569
 31
0.0
  0
LINE
  5
A0
330
1F
100
AcDbEntity
  8
0
  6
Continuous
 62
     7
370
    25
100
AcDbLine
 10
856.5165273607
 20
259.9689234431
 30
0.0
 11
500.5165273607
 21
259.9689234431
 31
0.0
  0
LINE
  5
A1
330
1F
100
AcDbEntity
  8
0
  6
Continuous
 62
     7
370
    25
100
AcDbLine
 10
1212.5165273607
 20
259.9689234431
 30
0.0
 11
856.5165273607
 21
259.9689234431
 31
0.0
  0
LINE
  5
A2
330
1F
100
AcDbEntity
  8
0
  6
Continuous
 62
     7
370
    25
100
AcDbLine
 10
1212.5165273607
 20
259.9689234431
 30
0.0
 11
1212.5165273607
 21
-55.0310765569
 31
0.0
  0
LINE
  5
A3
330
1F
100
AcDbEntity
  8
0
  6
Continuous
 62
     7
370
    25
100
AcDbLine
 10
500.5165273607
 20
259.9689234431
 30
0.0
 11
500.5165273607
 21
-55.0310765569
 31
0.0
  0
LINE
  5
A4
330
1F
100
AcDbEntity
  8
0
  6
Continuous
 62
     7
370
    25
100
AcDbLine
 10
838.8241160877
 20
-425.4758853423
 30
0.0
 11
665.8377021804
 21
-325.6129542359
 31
0.0
  0
LINE
  5
A5
330
1F
100
AcDbEntity
  8
0
  6
Continuous
 62
     7
370
    25
100
AcDbLine
 10
1169.2977303852
 20
-616.2542420447
 30
0.0
 11
1153.8497173879
 21
-607.3362939653
 31
0.0
  0
LINE
  5
A6
330
1F
100
AcDbEntity
  8
0
  6
Continuous
 62
     7
370
    25
100
AcDbLine
 10
508.3505017902
 20
-598.4183458858
 30
0.0
 11
1011.8105299951
 21
-889.0596336947
 31
0.0
  0
LINE
  5
A7
330
1F
100
AcDbEntity
  8
0
  6
Continuous
 62
     7
370
    25
100
AcDbLine
 10
996.3113164779
 20
-698.2812769922
 30
0.0
 11
1166.4693032605
 21
-600.0511621094
 31
0.0
  0
LINE
  5
A8
330
1F
100
AcDbEntity
  8
0
  6
Continuous
 62
     7
370
    25
100
AcDbLine
 10
1008.9821028703
 20
-327.2457704595
 30
0.0
 11
838.8241160877
 21
-425.4758853423
 31
0.0
  0
LINE
  5
A9
330
1F
100
AcDbEntity
  8
0
  6
Continuous
 62
     7
370
    25
100
AcDbLine
 10
838.8241160877
 20
-425.4758853423
 30
0.0
 11
838.8241160877
 21
-735.9414718373
 31
0.0
  0
ELLIPSE
  5
AA
330
1F
100
AcDbEntity
  8
0
  6
Continuous
 62
     7
370
    25
100
AcDbEllipse
 10
838.8241160877
 20
-607.3362939653
 30
0.0
 11
222.7386360737626
 21
3.410605131648481E-13
 31
0.0
210
0.0
220
0.0
230
1.0
 40
0.5773815452
 41
4.712388980384697
 42
5.49770587972005
  0
LWPOLYLINE
  5
AB
330
1F
100
AcDbEntity
  8
0
  6
Continuous
 62
     7
370
    25
100
AcDbPolyline
 90
      134
 70
   128
 43
0.0
 10
698.4634200222
 20
-397.7235112548
 10
698.339165774
 20
-391.721936224
 10
697.9666802891
 20
-385.8772139553
 10
697.3467947282
 20
-380.2023863094
 10
696.4808922986
 20
-374.7101160458
 10
695.370905167
 20
-369.4126585671
 10
694.0193101488
 20
-364.3218345722
 10
692.4291231811
 20
-359.4490036802
 10
690.6038925926
 20
-354.8050390822
 10
688.5476911866
 20
-350.4003032791
 10
686.2651071524
 20
-346.2446249588
 10
683.7612338276
 20
-342.3472770646
 10
681.0416583325
 20
-338.7169561036
 10
678.1124491036
 20
-335.3617627415
 10
674.9801423521
 20
-332.2891837265
 10
671.651727479
 20
-329.506075184
 10
668.1346314795
 20
-327.0186473172
 10
664.43670237
 20
-324.8324505505
 10
660.5661916763
 20
-322.9523631436
 10
656.5317360213
 20
-321.3825803068
 10
652.342337853
 20
-320.1266048394
 10
648.007345357
 20
-319.1872393137
 10
643.5364315965
 20
-318.5665798215
 10
638.9395729284
 20
-318.2660112969
 10
634.2270267419
 20
-318.2862044258
 10
629.4093085702
 20
-318.6271141494
 10
624.4971686263
 20
-319.2879797648
 10
619.5015678154
 20
-320.2673266224
 10
614.4336532761
 20
-321.5629694164
 10
609.3047335076
 20
-323.1720170611
 10
604.1262531352
 20
-325.0908791421
 10
598.9097673737
 20
-327.3152739278
 10
593.6669162424
 20
-329.8402379235
 10
588.4093985925
 20
-332.6601369473
 10
583.1489460015
 20
-335.7686787018
 10
577.8972965961
 20
-339.1589268148
 10
572.6661688598
 20
-342.8233163172
 10
567.4672354839
 20
-346.7536705231
 10
562.3120973217
 20
-350.9412192755
 10
557.2122575022
 20
-355.3766185155
 10
552.1790957623
 20
-360.0499711332
 10
547.2238430538
 20
-364.9508490515
 10
542.3575564832
 20
-370.0683164954
 10
537.5910946386
 20
-375.390954394
 10
532.9350933602
 20
-380.9068858609
 10
528.3999420074
 20
-386.6038026961
 10
523.9957602764
 20
-392.4689928505
 10
519.7323756185
 20
-398.4893687915
 10
515.6193013122
 20
-404.6514967062
 10
511.6657152344
 20
-410.9416264777
 10
507.8804393817
 20
-417.345722367
 10
504.2719201846
 20
-423.8494943319
 10
500.8482096605
 20
-430.4384299141
 10
497.6169474463
 20
-437.0978266218
 10
494.5853437515
 20
-443.8128247371
 10
491.7601632693
 20
-450.5684404734
 10
489.1477100821
 20
-457.3495994104
 10
486.7538135946
 20
-464.1411701309
 10
484.5838155258
 20
-470.9279979851
 10
482.6425579899
 20
-477.694938906
 10
480.9343726917
 20
-484.4268932026
 10
479.4630712603
 20
-491.1088392525
 10
478.2319367447
 20
-497.7258670211
 10
477.2437162874
 20
-504.2632113323
 10
476.5006149946
 20
-510.7062848144
 10
476.0042910158
 20
-517.0407104513
 10
475.7558518439
 20
-523.2523536624
 10
475.7558518439
 20
-529.3273538428
 10
476.0042910158
 20
-535.2521552916
 10
476.5006149946
 20
-541.0135374601
 10
477.2437162874
 20
-546.5986444519
 10
478.2319367447
 20
-551.9950137093
 10
479.4630712603
 20
-557.1906038224
 10
480.9343726917
 20
-562.1738213981
 10
482.6425579899
 20
-566.9335469294
 10
484.5838155258
 20
-571.4591596075
 10
486.7538135946
 20
-575.7405610209
 10
489.1477100821
 20
-579.7681976889
 10
491.7601632693
 20
-583.5330823792
 10
494.5853437515
 20
-587.0268141619
 10
497.6169474463
 20
-590.2415971553
 10
500.8482096605
 20
-593.1702579214
 10
504.2719201846
 20
-595.806261473
 10
507.8804393817
 20
-598.1437258553
 10
511.6657152344
 20
-600.1774352714
 10
515.6193013122
 20
-601.9028517202
 10
519.7323756185
 20
-603.316125123
 10
523.9957602764
 20
-604.4141019142
 10
528.3999420074
 20
-605.1943320784
 10
532.9350933602
 20
-605.6550746168
 10
537.5910946386
 20
-605.7953014327
 10
542.3575564832
 20
-605.6146996253
 10
547.2238430538
 20
-605.1136721878
 10
552.1790957623
 20
-604.2933371083
 10
557.2122575022
 20
-603.1555248752
 10
562.3120973217
 20
-601.7027743925
 10
567.4672354839
 20
-599.9383273146
 10
572.6661688598
 20
-597.8661208127
 10
577.8972965961
 20
-595.49077879
 10
583.1489460015
 20
-592.8176015633
 10
588.4093985925
 20
-589.8525540362
 10
593.6669162424
 20
-586.6022523893
 10
598.9097673737
 20
-583.0739493163
 10
604.1262531352
 20
-579.2755178411
 10
609.3047335076
 20
-575.2154337496
 10
614.4336532762
 20
-570.902756677
 10
619.5015678154
 20
-566.3471098922
 10
624.4971686263
 20
-561.5586588245
 10
629.4093085702
 20
-556.5480883807
 10
634.2270267419
 20
-551.3265791026
 10
638.9395729284
 20
-545.9057822193
 10
643.5364315965
 20
-540.2977936481
 10
648.007345357
 20
-534.5151270045
 10
652.342337853
 20
-528.5706856789
 10
656.5317360213
 20
-522.4777340443
 10
660.5661916763
 20
-516.2498678583
 10
664.43670237
 20
-509.9009839255
 10
668.1346314795
 20
-503.4452490886
 10
671.651727479
 20
-496.8970686164
 10
674.9801423521
 20
-490.2710540599
 10
678.1124491036
 20
-483.5819906486
 10
681.0416583325
 20
-476.8448042986
 10
683.7612338276
 20
-470.0745283069
 10
686.2651071524
 20
-463.2862698066
 10
688.5476911866
 20
-456.4951760568
 10
690.6038925926
 20
-449.7164006432
 10
692.4291231811
 20
-442.9650696643
 10
694.0193101488
 20
-436.2562479794
 10
695.370905167
 20
-429.6049055932
 10
696.4808922986
 20
-423.0258842511
 10
697.3467947282
 20
-416.5338643225
 10
697.9666802891
 20
-410.1433320423
 10
698.339165774
 20
-403.8685471869
 10
698.4634200222
 20
-397.7235112548
  0
LWPOLYLINE
  5
AC
330
1F
100
AcDbEntity
  8
0
  6
Continuous
 62
     7
370
    25
100
AcDbPolyline
 90
       18
 70
   128
 43
0.0
 10
1201.923448227
 20
-688.3647990637
 10
1201.7991939788
 20
-682.3632240329
 10
1201.4267084939
 20
-676.5185017642
 10
1200.8068229331
 20
-670.8436741183
 10
1199.9409205034
 20
-665.3514038547
 10
1198.8309333718
 20
-660.053946376
 10
1197.4793383537
 20
-654.9631223811
 10
1195.8891513859
 20
-650.0902914891
 10
1194.0639207974
 20
-645.4463268911
 10
1192.0077193914
 20
-641.041591088
 10
1189.7251353572
 20
-636.8859127677
 10
1187.2212620324
 20
-632.9885648735
 10
1184.5016865373
 20
-629.3582439125
 10
1181.5724773085
 20
-626.0030505504
 10
1178.4401705569
 20
-622.9304715354
 10
1175.1117556838
 20
-620.1473629928
 10
1171.5946596843
 20
-617.6599351261
 10
1169.2977303852
 20
-616.2542420447
  0
LWPOLYLINE
  5
AD
330
1F
100
AcDbEntity
  8
0
  6
Continuous
 62
     7
370
    25
100
AcDbPolyline
 90
       51
 70
   128
 43
0.0
 10
1011.8105299951
 20
-889.0596336947
 10
1015.1257434392
 20
-890.8187230802
 10
1019.079329517
 20
-892.544139529
 10
1023.1924038233
 20
-893.9574129319
 10
1027.4557884812
 20
-895.0553897231
 10
1031.8599702123
 20
-895.8356198872
 10
1036.395121565
 20
-896.2963624256
 10
1041.0511228434
 20
-896.4365892416
 10
1045.817584688
 20
-896.2559874341
 10
1050.6838712586
 20
-895.7549599966
 10
1055.6391239671
 20
-894.9346249172
 10
1060.6722857071
 20
-893.7968126841
 10
1065.7721255265
 20
-892.3440622014
 10
1070.9272636887
 20
-890.5796151234
 10
1076.1261970646
 20
-888.5074086216
 10
1081.357324801
 20
-886.1320665989
 10
1086.6089742063
 20
-883.4588893722
 10
1091.8694267973
 20
-880.4938418451
 10
1097.1269444473
 20
-877.2435401981
 10
1102.3697955785
 20
-873.7152371251
 10
1107.58628134
 20
-869.91680565
 10
1112.7647617124
 20
-865.8567215585
 10
1117.893681481
 20
-861.5440444859
 10
1122.9615960202
 20
-856.9883977011
 10
1127.9571968312
 20
-852.1999466334
 10
1132.869336775
 20
-847.1893761896
 10
1137.6870549467
 20
-841.9678669115
 10
1142.3996011332
 20
-836.5470700282
 10
1146.9964598013
 20
-830.939081457
 10
1151.4673735618
 20
-825.1564148134
 10
1155.8023660578
 20
-819.2119734878
 10
1159.9917642261
 20
-813.1190218532
 10
1164.0262198812
 20
-806.8911556671
 10
1167.8967305748
 20
-800.5422717344
 10
1171.5946596843
 20
-794.0865368975
 10
1175.1117556838
 20
-787.5383564253
 10
1178.4401705569
 20
-780.9123418688
 10
1181.5724773085
 20
-774.2232784575
 10
1184.5016865373
 20
-767.4860921075
 10
1187.2212620324
 20
-760.7158161158
 10
1189.7251353572
 20
-753.9275576155
 10
1192.0077193914
 20
-747.1364638657
 10
1194.0639207974
 20
-740.357688452
 10
1195.8891513859
 20
-733.6063574731
 10
1197.4793383537
 20
-726.8975357883
 10
1198.8309333718
 20
-720.246193402
 10
1199.9409205034
 20
-713.66717206
 10
1200.8068229331
 20
-707.1751521314
 10
1201.4267084939
 20
-700.7846198512
 10
1201.7991939788
 20
-694.5098349958
 10
1201.923448227
 20
-688.3647990637
  0
LWPOLYLINE
  5
AE
330
1F
100
AcDbEntity
  8
0
  6
Continuous
 62
     7
370
    25
100
AcDbPolyline
 90
      126
 70
   128
 43
0.0
 10
685.240523214
 20
-405.3569271003
 10
685.116560025
 20
-399.7340062794
 10
684.7449835999
 20
-394.268414296
 10
684.1267325729
 20
-388.9739577098
 10
683.2633686997
 20
-383.8640107776
 10
682.1570729125
 20
-378.9514816688
 10
680.8106398104
 20
-374.2487798584
 10
679.2274706003
 20
-369.7677847792
 10
677.411564505
 20
-365.5198158137
 10
675.3675086609
 20
-361.5156037002
 10
673.1004665304
 20
-357.765263426
 10
670.6161648588
 20
-354.2782686761
 10
667.9208792077
 20
-351.0634279019
 10
665.0214181026
 20
-348.1288620702
 10
661.9251058337
 20
-345.481984149
 10
658.6397639547
 20
-343.1294803816
 10
655.1736915243
 20
-341.0772933966
 10
651.5356441422
 20
-339.3306071966
 10
647.7348118319
 20
-337.8938340625
 10
643.7807958256
 20
-336.7706034079
 10
639.683584311
 20
-335.9637526108
 10
635.4535271998
 20
-335.4753198465
 10
631.1013099836
 20
-335.3065389385
 10
626.6379267406
 20
-335.4578362421
 10
622.0746523644
 20
-335.928829567
 10
617.4230140821
 20
-336.7183291433
 10
612.6947623356
 20
-337.8243406266
 10
607.9018410992
 20
-339.2440701358
 10
603.056357708
 20
-340.9739313109
 10
598.1705522735
 20
-343.0095543726
 10
593.2567667642
 20
-345.3457971604
 10
588.3274138289
 20
-347.976758122
 10
583.3949454408
 20
-350.895791222
 10
578.4718214432
 20
-354.0955227292
 10
573.5704780746
 20
-357.5678698442
 10
568.7032965536
 20
-361.3040611169
 10
563.8825718033
 20
-365.2946586037
 10
559.1204813927
 20
-369.5295817093
 10
554.4290547754
 20
-373.9981326501
 10
549.8201429024
 20
-378.6890234788
 10
545.3053882849
 20
-383.590404598
 10
540.896195585
 20
-388.6898946936
 10
536.6037028061
 20
-393.9746120111
 10
532.4387531575
 20
-399.4312068958
 10
528.4118676634
 20
-405.0458955155
 10
524.5332185862
 20
-410.8044946795
 10
520.8126037299
 20
-416.6924576665
 10
517.2594216907
 20
-422.6949109709
 10
513.8826481147
 20
-428.7966918749
 10
510.6908130251
 20
-434.9823867503
 10
507.6919792742
 20
-441.236369995
 10
504.8937221765
 20
-447.5428435045
 10
502.3031103722
 20
-453.8858765794
 10
499.9266879715
 20
-460.2494461677
 10
497.7704580237
 20
-466.6174773404
 10
495.8398673528
 20
-472.9738838979
 10
494.1397927983
 20
-479.3026090057
 10
492.6745288962
 20
-485.5876657549
 10
491.4477770301
 20
-491.8131775468
 10
490.4626360819
 20
-497.9634181981
 10
489.7215946029
 20
-504.0228516673
 10
489.2265245284
 20
-509.9761712994
 10
488.9786764483
 20
-515.8083384926
 10
488.9786764483
 20
-521.5046206862
 10
489.2265245284
 20
-527.0506285771
 10
489.7215946029
 20
-532.432352468
 10
490.4626360819
 20
-537.6361976573
 10
491.4477770301
 20
-542.6490187804
 10
492.6745288962
 20
-547.4581530161
 10
494.1397927983
 20
-552.051452074
 10
495.8398673528
 20
-556.417312882
 10
497.7704580237
 20
-560.5447068967
 10
499.9266879715
 20
-564.4232079628
 10
502.3031103722
 20
-568.0430186498
 10
504.8937221765
 20
-571.3949950019
 10
507.6919792742
 20
-574.4706696359
 10
510.6908130251
 20
-577.2622731306
 10
513.8826481147
 20
-579.7627536535
 10
517.2594216907
 20
-581.9657947737
 10
520.8126037299
 20
-583.8658314181
 10
524.5332185862
 20
-585.4580639292
 10
528.4118676634
 20
-586.7384701897
 10
532.4387531575
 20
-587.703815782
 10
536.6037028061
 20
-588.3516621595
 10
540.896195585
 20
-588.680372806
 10
545.3053882849
 20
-588.6891173698
 10
549.8201429024
 20
-588.3778737615
 10
554.4290547754
 20
-587.7474282094
 10
559.1204813927
 20
-586.7993732737
 10
563.8825718033
 20
-585.5361038235
 10
568.7032965536
 20
-583.9608109869
 10
573.5704780746
 20
-582.0774740905
 10
578.4718214432
 20
-579.8908506067
 10
583.3949454408
 20
-577.4064641361
 10
588.3274138289
 20
-574.6305904547
 10
593.2567667642
 20
-571.5702416601
 10
598.1705522735
 20
-568.2331484592
 10
603.056357708
 20
-564.627740639
 10
607.9018410992
 20
-560.7631257724
 10
612.6947623356
 20
-556.6490662121
 10
617.4230140821
 20
-552.2959544296
 10
622.0746523644
 20
-547.7147867629
 10
626.6379267406
 20
-542.9171356394
 10
631.1013099836
 20
-537.9151203419
 10
635.4535271998
 20
-532.7213763954
 10
639.683584311
 20
-527.3490236478
 10
643.7807958256
 20
-521.8116331283
 10
647.7348118319
 20
-516.123192766
 10
651.5356441422
 20
-510.298072055
 10
655.1736915243
 20
-504.3509857556
 10
658.6397639547
 20
-498.2969567241
 10
661.9251058337
 20
-492.1512779632
 10
665.0214181026
 20
-485.9294739908
 10
667.9208792077
 20
-479.6472616238
 10
670.6161648588
 20
-473.3205102757
 10
673.1004665304
 20
-466.9652018696
 10
675.3675086609
 20
-460.597390466
 10
677.411564505
 20
-454.2331617093
 10
679.2274706003
 20
-447.8885921935
 10
680.8106398104
 20
-441.5797088521
 10
682.1570729125
 20
-435.3224484716
 10
683.2633686997
 20
-429.1326174351
 10
684.1267325729
 20
-423.0258517928
 10
684.7449835999
 20
-417.0175777648
 10
685.116560025
 20
-411.1229727727
 10
685.240523214
 20
-405.3569271003
  0
LWPOLYLINE
  5
AF
330
1F
100
AcDbEntity
  8
0
  6
Continuous
 62
     7
370
    25
100
AcDbPolyline
 90
      134
 70
   128
 43
0.0
 10
1199.0950211023
 20
-527.9406050905
 10
1198.970766854
 20
-521.7955691584
 10
1198.5982813691
 20
-515.5207843029
 10
1197.9783958083
 20
-509.1302520227
 10
1197.1124933787
 20
-502.6382320941
 10
1196.0025062471
 20
-496.0592107521
 10
1194.6509112289
 20
-489.4078683658
 10
1193.0607242611
 20
-482.699046681
 10
1191.2354936727
 20
-475.9477157021
 10
1189.1792922667
 20
-469.1689402885
 10
1186.8967082325
 20
-462.3778465387
 10
1184.3928349076
 20
-455.5895880384
 10
1181.6732594126
 20
-448.8193120467
 10
1178.7440501837
 20
-442.0821256966
 10
1175.6117434322
 20
-435.3930622853
 10
1172.2833285591
 20
-428.7670477289
 10
1168.7662325596
 20
-422.2188672567
 10
1165.0683034501
 20
-415.7631324198
 10
1161.1977927564
 20
-409.414248487
 10
1157.1633371014
 20
-403.186382301
 10
1152.9739389331
 20
-397.0934306664
 10
1148.638946437
 20
-391.1489893407
 10
1144.1680326765
 20
-385.3663226971
 10
1139.5711740085
 20
-379.758334126
 10
1134.8586278219
 20
-374.3375372426
 10
1130.0409096502
 20
-369.1160279646
 10
1125.1287697064
 20
-364.1054575208
 10
1120.1331688955
 20
-359.3170064531
 10
1115.0652543562
 20
-354.7613596683
 10
1109.9363345876
 20
-350.4486825957
 10
1104.7578542153
 20
-346.3885985042
 10
1099.5413684537
 20
-342.590167029
 10
1094.2985173225
 20
-339.061863956
 10
1089.0409996726
 20
-335.811562309
 10
1083.7805470816
 20
-332.846514782
 10
1078.5288976762
 20
-330.1733375552
 10
1073.2977699399
 20
-327.7979955325
 10
1068.0988365639
 20
-325.7257890307
 10
1062.9436984018
 20
-323.9613419528
 10
1057.8438585823
 20
-322.50859147
 10
1052.8106968424
 20
-321.370779237
 10
1047.8554441339
 20
-320.5504441575
 10
1042.9891575633
 20
-320.04941672
 10
1038.2226957187
 20
-319.8688149126
 10
1033.5666944403
 20
-320.0090417285
 10
1029.0315430875
 20
-320.4697842669
 10
1024.6273613564
 20
-321.250014431
 10
1020.3639766986
 20
-322.3479912223
 10
1016.2509023923
 20
-323.7612646251
 10
1012.2973163145
 20
-325.4866810739
 10
1008.5120404618
 20
-327.5203904899
 10
1004.9035212647
 20
-329.8578548723
 10
1001.4798107406
 20
-332.4938584238
 10
998.2485485264
 20
-335.42251919
 10
995.2169448315
 20
-338.6373021834
 10
992.3917643494
 20
-342.1310339661
 10
989.7793111622
 20
-345.8959186564
 10
987.3854146746
 20
-349.9235553244
 10
985.2154166058
 20
-354.2049567378
 10
983.27415907
 20
-358.7305694159
 10
981.5659737717
 20
-363.4902949472
 10
980.0946723404
 20
-368.4735125229
 10
978.8635378248
 20
-373.669102636
 10
977.8753173675
 20
-379.0654718934
 10
977.1322160746
 20
-384.6505788851
 10
976.6358920958
 20
-390.4119610537
 10
976.387452924
 20
-396.3367625025
 10
976.387452924
 20
-402.4117626829
 10
976.6358920958
 20
-408.623405894
 10
977.1322160746
 20
-414.9578315309
 10
977.8753173675
 20
-421.400905013
 10
978.8635378248
 20
-427.9382493241
 10
980.0946723404
 20
-434.5552770928
 10
981.5659737717
 20
-441.2372231426
 10
983.27415907
 20
-447.9691774392
 10
985.2154166058
 20
-454.7361183602
 10
987.3854146747
 20
-461.5229462143
 10
989.7793111622
 20
-468.3145169349
 10
992.3917643494
 20
-475.0956758719
 10
995.2169448315
 20
-481.8512916082
 10
998.2485485264
 20
-488.5662897234
 10
1001.4798107406
 20
-495.2256864312
 10
1004.9035212647
 20
-501.8146220134
 10
1008.5120404618
 20
-508.3183939783
 10
1012.2973163145
 20
-514.7224898675
 10
1016.2509023923
 20
-521.0126196391
 10
1020.3639766986
 20
-527.1747475538
 10
1024.6273613564
 20
-533.1951234948
 10
1029.0315430875
 20
-539.0603136492
 10
1033.5666944403
 20
-544.7572304843
 10
1038.2226957187
 20
-550.2731619512
 10
1042.9891575633
 20
-555.5957998498
 10
1047.8554441339
 20
-560.7132672937
 10
1052.8106968424
 20
-565.6141452121
 10
1057.8438585823
 20
-570.2874978298
 10
1062.9436984018
 20
-574.7228970698
 10
1068.0988365639
 20
-578.9104458221
 10
1073.2977699399
 20
-582.840800028
 10
1078.5288976762
 20
-586.5051895304
 10
1083.7805470816
 20
-589.8954376435
 10
1089.0409996726
 20
-593.003979398
 10
1094.2985173225
 20
-595.8238784218
 10
1099.5413684537
 20
-598.3488424175
 10
1104.7578542153
 20
-600.5732372031
 10
1109.9363345876
 20
-602.4920992841
 10
1115.0652543562
 20
-604.1011469289
 10
1120.1331688955
 20
-605.3967897229
 10
1125.1287697064
 20
-606.3761365805
 10
1130.0409096502
 20
-607.0370021959
 10
1134.8586278219
 20
-607.3779119195
 10
1139.5711740085
 20
-607.3981050484
 10
1144.1680326765
 20
-607.0975365238
 10
1148.638946437
 20
-606.4768770316
 10
1152.9739389331
 20
-605.5375115059
 10
1157.1633371014
 20
-604.2815360384
 10
1161.1977927564
 20
-602.7117532016
 10
1165.0683034501
 20
-600.8316657948
 10
1168.7662325596
 20
-598.6454690281
 10
1172.2833285591
 20
-596.1580411613
 10
1175.6117434322
 20
-593.3749326187
 10
1178.7440501837
 20
-590.3023536038
 10
1181.6732594126
 20
-586.9471602416
 10
1184.3928349076
 20
-583.3168392807
 10
1186.8967082325
 20
-579.4194913865
 10
1189.1792922667
 20
-575.2638130662
 10
1191.2354936727
 20
-570.859077263
 10
1193.0607242611
 20
-566.215112665
 10
1194.6509112289
 20
-561.342281773
 10
1196.0025062471
 20
-556.2514577782
 10
1197.1124933787
 20
-550.9540002994
 10
1197.9783958083
 20
-545.4617300358
 10
1198.5982813691
 20
-539.7869023899
 10
1198.970766854
 20
-533.9421801212
 10
1199.0950211023
 20
-527.9406050905
  0
LWPOLYLINE
  5
B0
330
1F
100
AcDbEntity
  8
0
  6
Continuous
 62
     7
370
    25
100
AcDbPolyline
 90
      126
 70
   128
 43
0.0
 10
1185.8721242941
 20
-520.307189245
 10
1185.7481611051
 20
-514.5411435726
 10
1185.37658468
 20
-508.6465385805
 10
1184.7583336529
 20
-502.6382645524
 10
1183.8949697798
 20
-496.5314989102
 10
1182.7886739926
 20
-490.3416678736
 10
1181.4422408905
 20
-484.0844074932
 10
1179.8590716803
 20
-477.7755241517
 10
1178.043165585
 20
-471.430954636
 10
1175.9991097409
 20
-465.0667258793
 10
1173.7320676105
 20
-458.6989144757
 10
1171.2477659389
 20
-452.3436060696
 10
1168.5524802878
 20
-446.0168547215
 10
1165.6530191826
 20
-439.7346423544
 10
1162.5567069138
 20
-433.512838382
 10
1159.2713650348
 20
-427.3671596211
 10
1155.8052926044
 20
-421.3131305896
 10
1152.1672452223
 20
-415.3660442903
 10
1148.366412912
 20
-409.5409235793
 10
1144.4123969057
 20
-403.852483217
 10
1140.315185391
 20
-398.3150926975
 10
1136.0851282799
 20
-392.9427399499
 10
1131.7329110637
 20
-387.7489960033
 10
1127.2695278207
 20
-382.7469807059
 10
1122.7062534445
 20
-377.9493295823
 10
1118.0546151622
 20
-373.3681619157
 10
1113.3263634157
 20
-369.0150501332
 10
1108.5334421793
 20
-364.9009905729
 10
1103.6879587881
 20
-361.0363757063
 10
1098.8021533535
 20
-357.430967886
 10
1093.8883678443
 20
-354.0938746851
 10
1088.959014909
 20
-351.0335258906
 10
1084.0265465209
 20
-348.2576522092
 10
1079.1034225233
 20
-345.7732657386
 10
1074.2020791546
 20
-343.5866422547
 10
1069.3348976337
 20
-341.7033053583
 10
1064.5141728833
 20
-340.1280125218
 10
1059.7520824727
 20
-338.8647430715
 10
1055.0606558555
 20
-337.9166881358
 10
1050.4517439825
 20
-337.2862425837
 10
1045.936989365
 20
-336.9749989754
 10
1041.5277966651
 20
-336.9837435393
 10
1037.2353038862
 20
-337.3124541858
 10
1033.0703542376
 20
-337.9603005633
 10
1029.0434687435
 20
-338.9256461556
 10
1025.1648196663
 20
-340.206052416
 10
1021.44420481
 20
-341.7982849272
 10
1017.8910227708
 20
-343.6983215716
 10
1014.5142491948
 20
-345.9013626917
 10
1011.3224141051
 20
-348.4018432146
 10
1008.3235803543
 20
-351.1934467094
 10
1005.5253232566
 20
-354.2691213433
 10
1002.9347114523
 20
-357.6210976954
 10
1000.5582890516
 20
-361.2409083825
 10
998.4020591038
 20
-365.1194094485
 10
996.4714684329
 20
-369.2468034633
 10
994.7713938784
 20
-373.6126642713
 10
993.3061299763
 20
-378.2059633291
 10
992.0793781102
 20
-383.0150975649
 10
991.094237162
 20
-388.027918688
 10
990.353195683
 20
-393.2317638773
 10
989.8581256085
 20
-398.6134877682
 10
989.6102775283
 20
-404.1594956591
 10
989.6102775283
 20
-409.8557778527
 10
989.8581256085
 20
-415.6879450458
 10
990.353195683
 20
-421.641264678
 10
991.094237162
 20
-427.7006981472
 10
992.0793781102
 20
-433.8509387985
 10
993.3061299763
 20
-440.0764505903
 10
994.7713938784
 20
-446.3615073396
 10
996.4714684329
 20
-452.6902324474
 10
998.4020591038
 20
-459.0466390049
 10
1000.5582890516
 20
-465.4146701775
 10
1002.9347114523
 20
-471.7782397658
 10
1005.5253232566
 20
-478.1212728408
 10
1008.3235803543
 20
-484.4277463503
 10
1011.3224141051
 20
-490.6817295949
 10
1014.5142491948
 20
-496.8674244703
 10
1017.8910227708
 20
-502.9692053743
 10
1021.44420481
 20
-508.9716586788
 10
1025.1648196663
 20
-514.8596216658
 10
1029.0434687435
 20
-520.6182208298
 10
1033.0703542376
 20
-526.2329094495
 10
1037.2353038862
 20
-531.6895043342
 10
1041.5277966651
 20
-536.9742216517
 10
1045.936989365
 20
-542.0737117473
 10
1050.4517439825
 20
-546.9750928665
 10
1055.0606558555
 20
-551.6659836952
 10
1059.7520824727
 20
-556.134534636
 10
1064.5141728834
 20
-560.3694577415
 10
1069.3348976337
 20
-564.3600552284
 10
1074.2020791546
 20
-568.0962465011
 10
1079.1034225233
 20
-571.5685936161
 10
1084.0265465209
 20
-574.7683251233
 10
1088.959014909
 20
-577.6873582232
 10
1093.8883678443
 20
-580.3183191849
 10
1098.8021533535
 20
-582.6545619726
 10
1103.6879587881
 20
-584.6901850343
 10
1108.5334421793
 20
-586.4200462095
 10
1113.3263634157
 20
-587.8397757187
 10
1118.0546151622
 20
-588.945787202
 10
1122.7062534445
 20
-589.7352867783
 10
1127.2695278207
 20
-590.2062801032
 10
1131.7329110637
 20
-590.3575774067
 10
1136.0851282799
 20
-590.1887964987
 10
1140.315185391
 20
-589.7003637344
 10
1144.4123969057
 20
-588.8935129374
 10
1148.366412912
 20
-587.7702822828
 10
1152.1672452223
 20
-586.3335091486
 10
1155.8052926044
 20
-584.5868229486
 10
1159.2713650348
 20
-582.5346359637
 10
1162.5567069138
 20
-580.1821321963
 10
1165.6530191826
 20
-577.535254275
 10
1168.5524802878
 20
-574.6006884433
 10
1171.2477659389
 20
-571.3858476691
 10
1173.7320676105
 20
-567.8988529193
 10
1175.9991097409
 20
-564.1485126451
 10
1178.043165585
 20
-560.1443005316
 10
1179.8590716803
 20
-555.8963315661
 10
1181.4422408905
 20
-551.4153364869
 10
1182.7886739926
 20
-546.7126346765
 10
1183.8949697798
 20
-541.8001055677
 10
1184.7583336529
 20
-536.6901586355
 10
1185.37658468
 20
-531.3957020493
 10
1185.7481611051
 20
-525.9301100659
 10
1185.8721242941
 20
-520.307189245
  0
LINE
  5
B1
330
1F
100
AcDbEntity
  8
0
  6
Continuous
 62
     7
370
    25
100
AcDbLine
 10
-605.5076680091
 20
259.9689234431
 30
0.0
 11
-961.5076680091
 21
259.9689234431
 31
0.0
  0
LINE
  5
B2
330
1F
100
AcDbEntity
  8
0
  6
Continuous
 62
     7
370
    25
100
AcDbLine
 10
-249.5076680091
 20
259.9689234431
 30
0.0
 11
-605.5076680091
 21
259.9689234431
 31
0.0
  0
LINE
  5
B3
330
1F
100
AcDbEntity
  8
0
  6
Continuous
 62
     7
370
    25
100
AcDbLine
 10
-605.5076680091
 20
-55.0310765569
 30
0.0
 11
-249.5076680091
 21
-55.0310765569
 31
0.0
  0
LINE
  5
B4
330
1F
100
AcDbEntity
  8
0
  6
Continuous
 62
     7
370
    25
100
AcDbLine
 10
-961.5076680091
 20
-55.0310765569
 30
0.0
 11
-605.5076680091
 21
-55.0310765569
 31
0.0
  0
CIRCLE
  5
B5
330
1F
100
AcDbEntity
  8
0
  6
Continuous
 62
     7
370
    25
100
AcDbCircle
 10
-605.5076680091
 20
102.4689234431
 30
0.0
 40
138.8
  0
CIRCLE
  5
B6
330
1F
100
AcDbEntity
  8
0
  6
Continuous
 62
     7
370
    25
100
AcDbCircle
 10
-605.5076680091
 20
102.4689234431
 30
0.0
 40
157.5
  0
LINE
  5
B7
330
1F
100
AcDbEntity
  8
0
  6
Continuous
 62
     7
370
    25
100
AcDbLine
 10
-961.5076680091
 20
102.4689234431
 30
0.0
 11
-961.5076680091
 21
259.9689234431
 31
0.0
  0
LINE
  5
B8
330
1F
100
AcDbEntity
  8
0
  6
Continuous
 62
     7
370
    25
100
AcDbLine
 10
-961.5076680091
 20
-55.0310765569
 30
0.0
 11
-961.5076680091
 21
102.4689234431
 31
0.0
  0
LINE
  5
B9
330
1F
100
AcDbEntity
  8
0
  6
Continuous
 62
     7
370
    25
100
AcDbLine
 10
-249.5076680091
 20
102.4689234431
 30
0.0
 11
-249.5076680091
 21
259.9689234431
 31
0.0
  0
LINE
  5
BA
330
1F
100
AcDbEntity
  8
0
  6
Continuous
 62
     7
370
    25
100
AcDbLine
 10
-249.5076680091
 20
-55.0310765569
 30
0.0
 11
-249.5076680091
 21
102.4689234431
 31
0.0
  0
INSERT
  5
C6
330
1F
100
AcDbEntity
  8
FORMAT
100
AcDbBlockReference
  2
SW_CENTERMARKSYMBOL_1
 10
-605.5076680091
 20
102.4689234431
 30
0.0
  0
LINE
  5
C7
330
1F
100
AcDbEntity
  8
0
  6
Continuous
 62
     7
370
    25
100
AcDbLine
 10
-135.6775294749
 20
-167.141230878
 30
0.0
 11
-135.6775294749
 21
-879.141230878
 31
0.0
  0
LINE
  5
C8
330
1F
100
AcDbEntity
  8
0
  6
Continuous
 62
     7
370
    25
100
AcDbLine
 10
179.3224705251
 20
-365.641230878
 30
0.0
 11
179.3224705251
 21
-167.141230878
 31
0.0
  0
LINE
  5
C9
330
1F
100
AcDbEntity
  8
0
  6
Continuous
 62
     7
370
    25
100
AcDbLine
 10
179.3224705251
 20
-879.141230878
 30
0.0
 11
179.3224705251
 21
-680.641230878
 31
0.0
  0
LINE
  5
CA
330
1F
100
AcDbEntity
  8
0
  6
Continuous
 62
     7
370
    25
100
AcDbLine
 10
179.3224705251
 20
-680.641230878
 30
0.0
 11
373.8224705251
 21
-680.641230878
 31
0.0
  0
LINE
  5
CB
330
1F
100
AcDbEntity
  8
0
  6
Continuous
 62
     7
370
    25
100
AcDbLine
 10
373.8224705251
 20
-365.641230878
 30
0.0
 11
179.3224705251
 21
-365.641230878
 31
0.0
  0
LINE
  5
CC
330
1F
100
AcDbEntity
  8
0
  6
Continuous
 62
     7
370
    25
100
AcDbLine
 10
21.8224705251
 20
-523.141230878
 30
0.0
 11
179.3224705251
 21
-680.641230878
 31
0.0
  0
LINE
  5
CD
330
1F
100
AcDbEntity
  8
0
  6
Continuous
 62
     7
370
    25
100
AcDbLine
 10
179.3224705251
 20
-365.641230878
 30
0.0
 11
21.8224705251
 21
-523.141230878
 31
0.0
  0
LINE
  5
CE
330
1F
100
AcDbEntity
  8
0
  6
Continuous
 62
     7
370
    25
100
AcDbLine
 10
179.3224705251
 20
-879.141230878
 30
0.0
 11
-135.6775294749
 21
-879.141230878
 31
0.0
  0
LINE
  5
CF
330
1F
100
AcDbEntity
  8
0
  6
Continuous
 62
     7
370
    25
100
AcDbLine
 10
179.3224705251
 20
-167.141230878
 30
0.0
 11
-135.6775294749
 21
-167.141230878
 31
0.0
  0
LINE
  5
D0
330
1F
100
AcDbEntity
  8
0
  6
Continuous
 62
     7
370
    25
100
AcDbLine
 10
373.8224705251
 20
-365.641230878
 30
0.0
 11
373.8224705251
 21
-680.641230878
 31
0.0
  0
ENDSEC
  0
SECTION
  2
OBJECTS
  0
DICTIONARY
  5
C
330
0
100
AcDbDictionary
281
     1
  3
ACAD_GROUP
350
D
  3
ACAD_LAYOUT
350
1A
  3
ACAD_MLINESTYLE
350
17
  3
ACAD_PLOTSETTINGS
350
19
  3
ACAD_PLOTSTYLENAME
350
E
  3
ACAD_SCALELIST
350
47
  3
DWGPROPS
350
D1
  0
DICTIONARY
  5
D
102
{ACAD_REACTORS
330
C
102
}
330
C
100
AcDbDictionary
281
     1
  0
DICTIONARY
  5
1A
102
{ACAD_REACTORS
330
C
102
}
330
C
100
AcDbDictionary
281
     1
  3
Layout1
350
1E
  3
Layout2
350
26
  3
Model
350
22
  0
DICTIONARY
  5
17
102
{ACAD_REACTORS
330
C
102
}
330
C
100
AcDbDictionary
281
     1
  3
Standard
350
18
  0
DICTIONARY
  5
19
102
{ACAD_REACTORS
330
C
102
}
330
C
100
AcDbDictionary
281
     1
  0
ACDBDICTIONARYWDFLT
  5
E
102
{ACAD_REACTORS
330
C
102
}
330
C
100
AcDbDictionary
281
     1
  3
Normal
350
F
100
AcDbDictionaryWithDefault
340
F
  0
DICTIONARY
  5
47
102
{ACAD_REACTORS
330
C
102
}
330
C
100
AcDbDictionary
281
     1
  3
A0
350
48
  3
A1
350
49
  3
A2
350
4A
  3
A3
350
4B
  3
A4
350
4C
  3
A5
350
4D
  3
A6
350
4E
  3
A7
350
4F
  3
A8
350
50
  3
A9
350
51
  3
B0
350
52
  3
B1
350
53
  3
B2
350
54
  3
B3
350
55
  3
B4
350
56
  3
B5
350
57
  3
B6
350
58
  3
B7
350
59
  3
B8
350
5A
  3
B9
350
5B
  3
C0
350
5C
  3
C1
350
5D
  3
C2
350
5E
  3
C3
350
5F
  3
C4
350
60
  3
C5
350
61
  3
C6
350
62
  3
C7
350
63
  3
C8
350
64
  3
C9
350
65
  3
D0
350
66
  3
D1
350
67
  3
D2
350
68
  0
XRECORD
  5
D1
102
{ACAD_REACTORS
330
C
102
}
330
C
100
AcDbXrecord
280
     1
  1
DWGPROPS COOKIE
  2

  3

  4

  6

  7

  8
b.kav
  9

300
=
301
=
302
=
303
=
304
=
305
=
306
=
307
=
308
=
309
=
 40
0.0
 41
2459935.575593021
 42
2459935.575593206
  1

 90
        0
  0
LAYOUT
  5
1E
102
{ACAD_REACTORS
330
1A
102
}
330
1A
100
AcDbPlotSettings
  1

  2
none_device
  4

  6

 40
0.0
 41
0.0
 42
0.0
 43
0.0
 44
0.0
 45
0.0
 46
0.0
 47
0.0
 48
0.0
 49
0.0
140
0.0
141
0.0
142
1.0
143
1.0
 70
   688
 72
     1
 73
     0
 74
     5
  7

 75
    16
147
1.0
148
0.0
149
0.0
100
AcDbLayout
  1
Layout1
 70
     1
 71
     1
 10
0.0
 20
0.0
 11
420.0
 21
297.0
 12
0.0
 22
0.0
 32
0.0
 14
1.0000000000E+20
 24
1.0000000000E+20
 34
1.0000000000E+20
 15
-1.0000000000E+20
 25
-1.0000000000E+20
 35
-1.0000000000E+20
146
0.0
 13
0.0
 23
0.0
 33
0.0
 16
1.0
 26
0.0
 36
0.0
 17
0.0
 27
1.0
 37
0.0
 76
     0
330
1B
  0
LAYOUT
  5
26
102
{ACAD_REACTORS
330
1A
102
}
330
1A
100
AcDbPlotSettings
  1

  2
none_device
  4

  6

 40
0.0
 41
0.0
 42
0.0
 43
0.0
 44
0.0
 45
0.0
 46
0.0
 47
0.0
 48
0.0
 49
0.0
140
0.0
141
0.0
142
1.0
143
1.0
 70
   688
 72
     1
 73
     0
 74
     5
  7

 75
    16
147
1.0
148
0.0
149
0.0
100
AcDbLayout
  1
Layout2
 70
     1
 71
     2
 10
0.0
 20
0.0
 11
0.0
 21
0.0
 12
0.0
 22
0.0
 32
0.0
 14
0.0
 24
0.0
 34
0.0
 15
0.0
 25
0.0
 35
0.0
146
0.0
 13
0.0
 23
0.0
 33
0.0
 16
1.0
 26
0.0
 36
0.0
 17
0.0
 27
1.0
 37
0.0
 76
     0
330
23
  0
LAYOUT
  5
22
102
{ACAD_REACTORS
330
1A
102
}
330
1A
100
AcDbPlotSettings
  1

  2
none_device
  4
Letter_(8.50_x_11.00_Inches)
  6

 40
6.35
 41
6.35
 42
6.35000508
 43
6.35000508
 44
215.9
 45
279.4
 46
0.0
 47
0.0
 48
0.0
 49
0.0
140
0.0
141
0.0
142
1.0
143
1.0
 70
  1712
 72
     1
 73
     0
 74
     0
  7

 75
     0
147
1.0
148
0.0
149
0.0
100
AcDbLayout
  1
Model
 70
     1
 71
     0
 10
0.0
 20
0.0
 11
279.4
 21
215.9
 12
0.0
 22
0.0
 32
0.0
 14
0.0
 24
0.0
 34
0.0
 15
279.4
 25
215.9
 35
0.0
146
0.0
 13
0.0
 23
0.0
 33
0.0
 16
1.0
 26
0.0
 36
0.0
 17
0.0
 27
1.0
 37
0.0
 76
     0
330
1F
331
29
  0
MLINESTYLE
  5
18
102
{ACAD_REACTORS
330
17
102
}
330
17
100
AcDbMlineStyle
  2
Standard
 70
     0
  3

 62
   256
 51
90.0
 52
90.0
 71
     2
 49
0.5
 62
   256
  6
BYLAYER
 49
-0.5
 62
   256
  6
BYLAYER
  0
ACDBPLACEHOLDER
  5
F
102
{ACAD_REACTORS
330
E
102
}
330
E
  0
SCALE
  5
48
102
{ACAD_REACTORS
330
47
102
}
330
47
100
AcDbScale
 70
     0
300
1:1
140
1.0
141
1.0
290
     1
  0
SCALE
  5
49
102
{ACAD_REACTORS
330
47
102
}
330
47
100
AcDbScale
 70
     0
300
1:2
140
1.0
141
2.0
290
     0
  0
SCALE
  5
4A
102
{ACAD_REACTORS
330
47
102
}
330
47
100
AcDbScale
 70
     0
300
1:4
140
1.0
141
4.0
290
     0
  0
SCALE
  5
4B
102
{ACAD_REACTORS
330
47
102
}
330
47
100
AcDbScale
 70
     0
300
1:5
140
1.0
141
5.0
290
     0
  0
SCALE
  5
4C
102
{ACAD_REACTORS
330
47
102
}
330
47
100
AcDbScale
 70
     0
300
1:8
140
1.0
141
8.0
290
     0
  0
SCALE
  5
4D
102
{ACAD_REACTORS
330
47
102
}
330
47
100
AcDbScale
 70
     0
300
1:10
140
1.0
141
10.0
290
     0
  0
SCALE
  5
4E
102
{ACAD_REACTORS
330
47
102
}
330
47
100
AcDbScale
 70
     0
300
1:16
140
1.0
141
16.0
290
     0
  0
SCALE
  5
4F
102
{ACAD_REACTORS
330
47
102
}
330
47
100
AcDbScale
 70
     0
300
1:20
140
1.0
141
20.0
290
     0
  0
SCALE
  5
50
102
{ACAD_REACTORS
330
47
102
}
330
47
100
AcDbScale
 70
     0
300
1:30
140
1.0
141
30.0
290
     0
  0
SCALE
  5
51
102
{ACAD_REACTORS
330
47
102
}
330
47
100
AcDbScale
 70
     0
300
1:40
140
1.0
141
40.0
290
     0
  0
SCALE
  5
52
102
{ACAD_REACTORS
330
47
102
}
330
47
100
AcDbScale
 70
     0
300
1:50
140
1.0
141
50.0
290
     0
  0
SCALE
  5
53
102
{ACAD_REACTORS
330
47
102
}
330
47
100
AcDbScale
 70
     0
300
1:100
140
1.0
141
100.0
290
     0
  0
SCALE
  5
54
102
{ACAD_REACTORS
330
47
102
}
330
47
100
AcDbScale
 70
     0
300
2:1
140
2.0
141
1.0
290
     0
  0
SCALE
  5
55
102
{ACAD_REACTORS
330
47
102
}
330
47
100
AcDbScale
 70
     0
300
4:1
140
4.0
141
1.0
290
     0
  0
SCALE
  5
56
102
{ACAD_REACTORS
330
47
102
}
330
47
100
AcDbScale
 70
     0
300
8:1
140
8.0
141
1.0
290
     0
  0
SCALE
  5
57
102
{ACAD_REACTORS
330
47
102
}
330
47
100
AcDbScale
 70
     0
300
10:1
140
10.0
141
1.0
290
     0
  0
SCALE
  5
58
102
{ACAD_REACTORS
330
47
102
}
330
47
100
AcDbScale
 70
     0
300
100:1
140
100.0
141
1.0
290
     0
  0
SCALE
  5
59
102
{ACAD_REACTORS
330
47
102
}
330
47
100
AcDbScale
 70
     0
300
1/128" = 1'-0"
140
0.0078125
141
12.0
290
     0
  0
SCALE
  5
5A
102
{ACAD_REACTORS
330
47
102
}
330
47
100
AcDbScale
 70
     0
300
1/64" = 1'-0"
140
0.015625
141
12.0
290
     0
  0
SCALE
  5
5B
102
{ACAD_REACTORS
330
47
102
}
330
47
100
AcDbScale
 70
     0
300
1/32" = 1'-0"
140
0.03125
141
12.0
290
     0
  0
SCALE
  5
5C
102
{ACAD_REACTORS
330
47
102
}
330
47
100
AcDbScale
 70
     0
300
1/16" = 1'-0"
140
0.0625
141
12.0
290
     0
  0
SCALE
  5
5D
102
{ACAD_REACTORS
330
47
102
}
330
47
100
AcDbScale
 70
     0
300
3/32" = 1'-0"
140
0.09375
141
12.0
290
     0
  0
SCALE
  5
5E
102
{ACAD_REACTORS
330
47
102
}
330
47
100
AcDbScale
 70
     0
300
1/8" = 1'-0"
140
0.125
141
12.0
290
     0
  0
SCALE
  5
5F
102
{ACAD_REACTORS
330
47
102
}
330
47
100
AcDbScale
 70
     0
300
3/16" = 1'-0"
140
0.1875
141
12.0
290
     0
  0
SCALE
  5
60
102
{ACAD_REACTORS
330
47
102
}
330
47
100
AcDbScale
 70
     0
300
1/4" = 1'-0"
140
0.25
141
12.0
290
     0
  0
SCALE
  5
61
102
{ACAD_REACTORS
330
47
102
}
330
47
100
AcDbScale
 70
     0
300
3/8" = 1'-0"
140
0.375
141
12.0
290
     0
  0
SCALE
  5
62
102
{ACAD_REACTORS
330
47
102
}
330
47
100
AcDbScale
 70
     0
300
1/2" = 1'-0"
140
0.5
141
12.0
290
     0
  0
SCALE
  5
63
102
{ACAD_REACTORS
330
47
102
}
330
47
100
AcDbScale
 70
     0
300
3/4" = 1'-0"
140
0.75
141
12.0
290
     0
  0
SCALE
  5
64
102
{ACAD_REACTORS
330
47
102
}
330
47
100
AcDbScale
 70
     0
300
1" = 1'-0"
140
1.0
141
12.0
290
     0
  0
SCALE
  5
65
102
{ACAD_REACTORS
330
47
102
}
330
47
100
AcDbScale
 70
     0
300
1-1/2" = 1'-0"
140
1.5
141
12.0
290
     0
  0
SCALE
  5
66
102
{ACAD_REACTORS
330
47
102
}
330
47
100
AcDbScale
 70
     0
300
3" = 1'-0"
140
3.0
141
12.0
290
     0
  0
SCALE
  5
67
102
{ACAD_REACTORS
330
47
102
}
330
47
100
AcDbScale
 70
     0
300
6" = 1'-0"
140
6.0
141
12.0
290
     0
  0
SCALE
  5
68
102
{ACAD_REACTORS
330
47
102
}
330
47
100
AcDbScale
 70
     0
300
1'-0" = 1'-0"
140
12.0
141
12.0
290
     0
  0
ENDSEC
  0
EOF
